Kunci Gitar Ed Sheeran - Happier (Tab) Chord dan Lirik

AUTO SCROLL TEKS: A + A -

Ed Sheeran - Happier (Tab)

CHORDS USED:

    Am7    Fmaj7     C

e|---0---|---0---|---0---|
B|---1---|---1---|---1---|
G|---0---|---2---|---0---|
D|---2---|---3---|---2---|
A|---0---|---0---|---3---|
E|-------|-------|-------|

==========================

[INTRO]
0.00 - 0.10
e|------------------------|-----------------------|
B|------------------------|-1---------------------|
G|-------0-----0h2p0--0-2-|-0------0---------0----| x2
D|----2-----2--3----------|-0h2-----------2-----2-|
A|-0-----------3----------|-3---------------------|
E|------------------------|-----------------------|

[VERSE]
0.11 - 0.53
"Walking down 29th and park..."
e|------------------------|-----------------------|
B|------------------------|-1---------------------|
G|-------0-----0h2p0--0-2-|-0------0---------0----| x8
D|----2-----2--3----------|-0h2-----------2-----2-|
A|-0-----------3----------|-3---------------------|
E|------------------------|-----------------------|

[CHORUS]
0.54 - 1.36
"Ain't nobody hurt you like I hurt you..."
"...cause baby you look happier..."
e|--0---0---0---0--|--0---0---0---0--|--0---0---0---0--|--0---0---0---0--|
B|--1---1---1---1--|--1---1---1---1--|--1---1---1---1--|--1---1---1---1--|
G|--0---0---0---0--|--2---2---2---2--|--0---0---0---0--|--0---0---0---0--| x8
D|--2---2---2---2--|--3---3---3---3--|--2---2---2---2--|--2---2---2---2--|
A|--0---0---0---0--|--0---0---0---0--|--3---3---3---3--|--3---3---3---3--|
E|-----------------|-----------------|-----------------|-----------------|

[VERSE]
1.37 - 1.56
"Sat in the corner of the room..."
e|--0--------------|--0--------------|--0--------------|-----------------|
B|--1--------------|--1--------------|--1--------------|-----------------|
G|--0--------------|--2--------------|--0--------------|-----------------| x4
D|--2--------------|--3--------------|--2--------------|-----------------|
A|--0--------------|--0--------------|--3--------------|-----------------|
E|-----------------|-----------------|-----------------|-----------------|

[CHORUS]
1.57 - 2.40
"Ain't nobody hurt you like I hurt you..."
"...cause baby you look happier..."
e|--0---0---0---0--|--0---0---0---0--|--0---0---0---0--|--0---0---0---0--|
B|--1---1---1---1--|--1---1---1---1--|--1---1---1---1--|--1---1---1---1--|
G|--0---0---0---0--|--2---2---2---2--|--0---0---0---0--|--0---0---0---0--| x8
D|--2---2---2---2--|--3---3---3---3--|--2---2---2---2--|--2---2---2---2--|
A|--0---0---0---0--|--0---0---0---0--|--3---3---3---3--|--3---3---3---3--|
E|-----------------|-----------------|-----------------|-----------------|

[BRIDGE]
2.41 - 3.00
"Hey yeah, hey yeahh.."
e|--0---0---0---0--|--0---0---0---0--|--0---0---0---0--|--0---0---0---0--|
B|--1---1---1---1--|--1---1---1---1--|--1---1---1---1--|--1---1---1---1--|
G|--0---0---0---0--|--2---2---2---2--|--0---0---0---0--|--0---0---0---0--| x4
D|--2---2---2---2--|--3---3---3---3--|--2---2---2---2--|--2---2---2---2--|
A|--0---0---0---0--|--0---0---0---0--|--3---3---3---3--|--3---3---3---3--|
E|-----------------|-----------------|-----------------|-----------------|

[OUTRO]
3.01 - 3.27
"Baby you look happier..."
e|--0--------------|--0--------------|--0--------------|-----------------|
B|--1--------------|--1--------------|--1--------------|-----------------|
G|--0--------------|--2--------------|--0--------------|-----------------| x4
D|--2--------------|--3--------------|--2--------------|-----------------|
A|--0--------------|--0--------------|--3--------------|-----------------|
E|-----------------|-----------------|-----------------|-----------------|


************************************

| h   Hammer-on
| p   Pull-off

************************************

Lihat semua Kunci Gitar Ed Sheeran Tabs