Kunci Gitar Guns N' Roses - Sweet Child O Mine (Tab)

AUTO SCROLL TEKS: A + A - TERANG

Guns N' Roses - Sweet Child O Mine (Tab)

Key: D
Tuning: Eb Ab Db Gb Bb Eb

[Intro]

eb|--------------15----14-----|--------------15----14-----|
Bb|-----15--------------------|-----15--------------------|
Gb|--------14-12----14----14--|--------14-12----14----14--|
Db|--12-----------------------|--12-----------------------|
Ab|---------------------------|---------------------------|
Eb|---------------------------|---------------------------|

eb|--------------15----14-----|--------------15----14-----|
Bb|-----15--------------------|-----15--------------------|
Gb|--------14-12----14----14--|--------14-12----14----14--|
Db|--14-----------------------|--14-----------------------|
Ab|---------------------------|---------------------------|
Eb|---------------------------|---------------------------|

eb|--------------15----14-----|--------------15----14-----|
Bb|-----15--------------------|-----15--------------------|
Gb|--12----14-12----14----14--|--12----14-12----14----14--|
Db|---------------------------|---------------------------|
Ab|---------------------------|---------------------------|
Eb|---------------------------|---------------------------|

eb|--------------15----14-----|--------------15----14-----|
Bb|-----15--------------------|-----15--------------------|
Gb|--------14-12----14----14--|--------14-12----14----14--|
Db|--12-----------------------|--12-----------------------|
Ab|---------------------------|---------------------------|
Eb|---------------------------|---------------------------|

eb|--------------15----14-----|--------------15----14-----|
Bb|-----15--------------------|-----15--------------------|
Gb|--------14-12----14----14--|--------14-12----14----14--|
Db|--12-----------------------|--12-----------------------|
Ab|---------------------------|---------------------------|
Eb|---------------------------|---------------------------|

eb|--------------15----14-----|--------------15----14-----|
Bb|-----15--------------------|-----15--------------------|
Gb|--------14-12----14----14--|--------14-12----14----14--|
Db|--14-----------------------|--14-----------------------|
Ab|---------------------------|---------------------------|
Eb|---------------------------|---------------------------|

eb|--------------15----14-----|--------------15----14-----|
Bb|-----15--------------------|-----15--------------------|
Gb|--12----14-12----14----14--|--12----14-12----14----14--|
Db|---------------------------|---------------------------|
Ab|---------------------------|---------------------------|
Eb|---------------------------|---------------------------|

eb|--12------------12----14---|--15----14----12---------------14---|
Bb|---------15----------------|---------------------15--------15---|
Gb|-----14------14----14---14-|-----14----14----14------14----14---|
Db|---------------------------|------------------------------------|
Ab|---------------------------|------------------------------------|
Eb|---------------------------|------------------------------------|

[Chorus]

eb|---------------------------|--------------12----10-----|
Bb|-----14-------15----14-----|-----13--------------------|
Gb|--------14-------14----14--|--------12-10----12----12--|
Db|--11-------14--------------|--10-----------------------|
Ab|---------------------------|---------------------------|
Eb|---------------------------|---------------------------|

eb|--------------15----14-----|--------------15----14-----|
Bb|-----15--------------------|-----15--------------------|
Gb|--------14-12----14----14--|--------14-12----14----14--|
Db|--12-----------------------|--12-----------------------|
Ab|---------------------------|---------------------------|
Eb|---------------------------|---------------------------|

eb|---------------------------|--------------12----10-----|
Bb|-----14-------15----14-----|-----13--------------------|
Gb|--------14-------14----14--|--------12-10----12----12--|
Db|--11-------14--------------|--10-----------------------|
Ab|---------------------------|---------------------------|
Eb|---------------------------|---------------------------|

eb|---------------------------|---------------------------|
Bb|--------15-----------------|---------------------------|
Gb|--12s14--------------------|---------------------------|
Db|---------------------------|---------------------------|
Ab|---------------------------|---------------------------|
Eb|---------------------------|---------------------------|

[Interlude 1]

eb|-------------------------------------------------------------|
Bb|---10---8--7-----10--8--7----10---8------10---8-----10-\-8---|
Gb|-------------------------------------9------------9----------|
Db|-------------------------------------------------------------|
Ab|-------------------------------------------------------------|
Eb|-------------------------------------------------------------|

eb|------------------10--10b--(10)---------------|
Bb|-10-b-(10)8--10-b--------------full-----------|
Gb|--------------------------------9-b-----------|
Db|----------------------------------------------|
Ab|----------------------------------------------|
Eb|----------------------------------------------|


[Interlude 2]

eb|-------------------------------------------------------------|
Bb|---10---8--7-----10--8--7----10---8------10---8-----10-\-8---|
Gb|-------------------------------------9------------9----------|
Db|-------------------------------------------------------------|
Ab|-------------------------------------------------------------|
Eb|-------------------------------------------------------------|

eb|--------------------------------10--------------------|
Bb|-10-\-8-7hb--(7)----7-b------------(7)-----10----8--7-|
Gb|------------------7-----------------------------------|
Db|------------------------------------------------------|
Ab|------------------------------------------------------|
Eb|------------------------------------------------------|

eb|------------------------10----10-\-8-------/12--------|
Bb|-10---8----7-----/10-b--------------------------------|
Gb|------------------------------------------------------|
Db|------------------------------------------------------|
Ab|------------------------------------------------------|
Eb|------------------------------------------------------|

eb|--12---12-\-10---10-(10)\-8---7-b--(7)----------------|
Bb|-----------------------------------------8------------|
Gb|---------------------------------------------7-~~~~~~~|
Db|------------------------------------------------------|
Ab|------------------------------------------------------|
Eb|------------------------------------------------------|

eb|-----------------------10---10-b--(10)-------------17----(17)|
Bb|-10-b--(10)p8---10-b-------------------17-b---(17)-------(17)|
Gb|-------------------------------------------------------------|
Db|-------------------------------------------------------------|
Ab|-------------------------------------------------------------|
Eb|-------------------------------------------------------------|

[Chorus]

eb|-----------------------------|
Bb|--7hb------------------------|
Gb|------7----------------------|
Db|--------7--5-\-4---0---------|
Ab|----------------------3b-----|
Eb|-----------------------------|


[Solo]

eb|-17b--hold----15--14--h15p14-----------15--14--h15p14-----------12--14-|
Bb|-----------------------------17-----------------------17-16------------|
Gb|-----------------------------------------------------------------------|
Db|-----------------------------------------------------------------------|
Ab|-----------------------------------------------------------------------|
Eb|-----------------------------------------------------------------------|

eb|-----------------------------------------------------------------------|
Bb|--15b--12----------------------------------------13-12-------h13p12\10-|
Gb|----------14b--12--11h12----------------11-12-14-----------------------|
Db|-----------------------------14-----14---------------------------------|
Ab|-----------------------------------------------------------------------|
Eb|-----------------------------------------------------------------------|

eb|---------------------------------------------15b-----------------------|
Bb|--13b-----13-----12--12-(12)-------12b----------------7b---------------|
Gb|-----------------------------------------14-----------------9--9-------|
Db|-----------------------------------------------------------------------|
Ab|-----------------------------------------------------------------------|
Eb|-----------------------------------------------------------------------|

eb|-----------------------------------------------------------------------|
Bb|-----7b----------------------------------------------------------------|
Gb|----------9--9-----8b----8/11---------11b---9-----------------9--------|
Db|-----------------------------------------------9b---7---9--------------|
Ab|-----------------------------------------------------------------------|
Eb|-----------------------------------------------------------------------|

eb|-----------------------------------------------------------------------|
Bb|--------7h8--p7---------------------------------------------7b---7-10b-|
Gb|----------------------9------8b-----8------/11-----9b--8-9-----9-------|
Db|-----------------------------------------------------------------------|
Ab|-----------------------------------------------------------------------|
Eb|-----------------------------------------------------------------------|

eb|-7-8p7-11p7-8-11-12/14-11-12--14/15-12-14-15p14-12----14p11-12h14p12---|
Bb|---------------------------------------------------15----------------15|
Gb|-----------------------------------------------------------------------|
Db|-----------------------------------------------------------------------|
Ab|-----------------------------------------------------------------------|
Eb|-----------------------------------------------------------------------|

eb|-17--------------------------------------------------------------------|
Bb|----15b---15b---15b---15b---15b-p12-----15b----15b--------15b-p12------|
Gb|------------------------------------14----------------------------14---|
Db|-----------------------------------------------------------------------|
Ab|-----------------------------------------------------------------------|
Eb|-----------------------------------------------------------------------|

eb|----------------------------------15-----------------------------------|
Bb|--17b---17b--------17b----17b----------17b---------17b-p15--15h17------|
Gb|-------------------17b-------------------------------------------------|
Db|-----------------------------------------------------------------------|
Ab|-----------------------------------------------------------------------|
Eb|-----------------------------------------------------------------------|

eb|-----------12----------------------------------------------------------|
Bb|-15b------------15---12------------------------------------------------|
Gb|---------------------------14b-p12-14---12-14----12--14b----12--14--12-|
Db|-----------------------------------------------------------------------|
Ab|-----------------------------------------------------------------------|
Eb|-----------------------------------------------------------------------|

eb|----15-------------15-----15-----15------------------------------------|
Bb|----15-------15----15-----15-------15----------------------------------|
Gb|-14b--14--12-14b-----14b----14b------14b-p12----14p12--x-x----12b------|
Db|---------------------------------------------14--------x-x-------------|
Ab|-----------------------------------------------------------------------|
Eb|-----------------------------------------------------------------------|

eb|-----------------------------------------------------------------------|
Bb|-----------------------------------------------------------------------|
Gb|-----------------12h14p12----12b--------------------12h14p12-----12-12-|
Db|-14p12-14----x-x----------14--------14p12-14----x-x----------14--------|
Ab|-----------------------------------------------------------------------|
Eb|-----------------------------------------------------------------------|

eb|----------------------------------------------12-12-------15-15p12--15-|
Bb|-------------------12-12-------15-15p12-------------15p12--------------|
Gb|-------14-14p12-14-------14p12-----------------------------------------|
Db|-14p12-----------------------------------------------------------------|
Ab|-----------------------------------------------------------------------|
Eb|-----------------------------------------------------------------------|

eb|-14----12h15p12---------12-----------12-----------12-----------12------|
Bb|----15----------15--15b----15p12--------15p12-15b----15p12--------15p12|
Gb|----------------------------------14b-----------------------14b--------|
Db|-----------------------------------------------------------------------|
Ab|-----------------------------------------------------------------------|
Eb|-----------------------------------------------------------------------|

eb|------12-----------12-----------12--------------12-------15b-----------|
Bb|--15b----15p12--------15p12-15b----15p12-----12----15p12---------------|
Gb|---------------14b-----------------------14b---------------------------|
Db|-----------------------------------------------------------------------|
Ab|-----------------------------------------------------------------------|
Eb|-----------------------------------------------------------------------|

eb|--------------------15------12h15p12----12------12---------------------|
Bb|-------------------------------------15-----15b-----15p12--------------|
Gb|-----------------------------------------------------------14b-p12-14b-|
Db|-----------------------------------------------------------------------|
Ab|-----------------------------------------------------------------------|
Eb|-----------------------------------------------------------------------|

eb|---------------------------------------------------|
Bb|-------15------------------------------------------|
Gb|----------14b-p12-14b----14p12--------------12-----|
Db|----------------------14-------14------------------|
Ab|---------------------------------------------------|
Eb|---------------------------------------------------|

[Outro]

eb|--------------------------------------------------------------------|
Bb|-----------------------------------------------------------------9--|
Gb|---------------------------------------------------------------9----|
Db|--14-\-9----9\5---------------------------------------------9-------|
Ab|---------------------10-\-7-\-2---------------------------7---------|
Eb|-------------------------------------5-\-3hb---3-\-0----------------|


*******************

|(n) ghost note
| h  hammer on
| p  pull off
| x  dead note
| b  bend
| /  slide up
| \  slide down
| s  legato slide
| ~  vibrato

*******************

Lihat semua Kunci Gitar Guns N' Roses Tabs