Kunci Gitar John Legend - All Of Me (Tab)

AUTO SCROLL TEKS: A + A - TERANG

John Legend - All Of Me Tab

Key: Em
Tuning: E A D G B E
Capo: fret 1
Kesulitan: Sedang

Picking Pattern

[Verse]

    Em            C            G             D
e||-------------------------------------------------------||
B||--0----0---0---1----1---1---0----0----0---3----3---3---||
G||*-0----0---0---0----0---0---0----0----0---2----2---2--*||
D||*-2----2---2---2----2---2---0----0----0---0--0---0----*|| x4
A||---------------3--3---3--------------------------------||
E||--0--0---0------------------3--3----3------------------||

[Pre-Chorus]

  Am                              Em         D
e|------------------0------------------------------------|
B|-1------1-----0h1-------3---1---0---0--0---3----3---3--|
G|---2------2-----------2---------0---0--0---2----2---2--|
D|-----2------2-------------------2---2--2---0--0---0----|
A|-0------0-----------0-----0----------------------------|
E|--------------------------------0--0--0----------------|

  Am                              Em         D
e|------------------0------------------------2--|
B|-1------1-----0h1-------3---1---0---0--0---3--|
G|---2------2-----------2---------0---0--0---2--|
D|-----2------2-------------------2---2--2---0--|
A|-0------0-----------0-----0-------------------|
E|--------------------------------0--0--0-------|

[Chorus]

     G
e||----------------------|------------------------|
B||--3-------3-------3---|-3-------3-------3------|
G||*---0-------0-------0-|---0-------0-------0----|
D||*---------------------|------------------------|
A||----------------------|------------------------|
E||--3---3---3---3---3---|-3---3---3---3---3------|

   Em
e|--------------------------------------|
B|----------------0----------------0----|
G|-0---------0--------0-------0---------|
D|---2---4----------------4-------------|
A|--------------------------------------|
E|-0---0---0----0---0---0---0----0------|

   Am
e|---------------------------------------|
B|-------0---1-----------0---1-----------|
G|-2-------------2---------------2-------|
D|---2---------------2-------------------|
A|-0---0---0---0---0---0---0---0---------|
E|---------------------------------------|

   D
e|-----------------------------------------||
B|-3-----3-----3------3--------------------||
G|---2-----2-----2---2--------------------*||
D|-0---0-----0------0---------------------*|| x2
A|-----------------------------------------||
E|-----------------------------------------||

[End like this]

              Em        C            G       D
e||---------------3--2------0------------------------||
B||--0-1-3-------0---------1--3--1-------0-------3---||
G||*------------0---------0-------------0------2----*||
D||*-----------------------------------0-----0------*|| x2
A||-----------2---------3----------------------------||
E||----------------------------------3---------------||


*********************

| h   Hammer-on

*********************

[Intro]
Em   C   G   D   x2

[Verse 1]
Em              C                      G
   What would I do without your smart mouth
            D                      Em
Drawing me in, and you kicking me out
          C            G             D            Em
Got my head spinning, no kidding, I can't pin you down
              C                     G
What's going on in that beautiful mind
                D             Em
I'm on your magical mystery ride
         C               G                     D         Am
And I'm so dizzy, don't know what hit me, but I'll be alright

[Pre-Chorus 1]
Am               Em
My head's under water
    D              Am
But I'm breathing fine
                 Em             D
You're crazy and I'm out of my mind

[Chorus 1]
       G
Cause all of me
       Em
Loves all of you
            Am
Love your curves and all your edges
           D
All your perfect imperfections
           G
Give your all to me
             Em
I'll give my all to you
          Am
You're my end and my beginning
      D
Even when I lose I'm winning
                  Em   C      G  D
Cause I give you all, all of me
                 Em   C      G    D
And you give me all, all of you, oh

[Verse 2]
Em           C                      G
   How many times do I have to tell you
                  D                       Em
Even when you're crying you're beautiful too
              C           G          D                  Em
The world is beating you down, I'm around through every move
            C                  G
You're my downfall, you're my muse
             D                        Em
My worst distraction, my rhythm and blues
              C             G          D           Am
I can't stop singing, it's ringing in my head for you

[Pre-Chorus 2]
Am               Em
My head's under water
    D              Am
But I'm breathing fine
                 Em             D
You're crazy and I'm out of my mind

[Chorus 2]
       G
Cause all of me
       Em
Loves all of you
            Am
Love your curves and all your edges
           D
All your perfect imperfections
           G
Give your all to me
             Em
I'll give my all to you
          Am
You're my end and my beginning
      D
Even when I lose I'm winning
                  Em   C      G  D
Cause I give you all, all of me
                 Em   C      G    D
And you give me all, all of you, oh

[Pre-Chorus 3]
Am            Em
Cards on the table
       D             Am
We're both showing hearts
Am          Em               D
Risking it all, though it's hard

[Chorus 3]
       G
Cause all of me
       Em
Loves all of you
            Am
Love your curves and all your edges
           D
All your perfect imperfections
           G
Give your all to me
             Em
I'll give my all to you
          Am
You're my end and my beginning
      D
Even when I lose I'm winning
                  Em   C      G  D
Cause I give you all, all of me
                 Em   C      G    D
And you give me all, all of you, oh
                  Em   C      G  D
Cause I give you all, all of me
                 Em   C      G    D
And you give me all, all of you, oh

Lihat semua Kunci Gitar John Legend Tabs