Kunci Gitar Lewis Capaldi - Before You Go (Tab)

AUTO SCROLL TEKS: A + A - TERANG

Lewis Capaldi - Before You Go (Tab)

e|------------------------------------------------------------------------------------------|
B|------------------------------------------------------------------------------------------|
G|------4-4-----------4-4-----------4-4-----------4-4---------------------------------------|
D|------------------------------------------------------------------------------------------|
A|------------------------------------------------------------------------------------------|
E|--4--4-4--------4--4-4--------4--4-4--------4--4-4----------------------------------------|
 I hate you, I hate you, I hate you  but I was just kidding myself

e|-----------------------------------------------------------------------------------------------------------|
B|-----------------------------------------------------------------------------------------------------------|
G|------4-4------4-4------4-4------4-4-----------------------------------------------------------------------|
D|-----------------------------------------------------------------------------------------------------------|
A|-----------------------------------------------------------------------------------------------------------|
E|--0--0-0---0--0-0---0--0-0---0--0-0------------------------------------------------------------------------|
   Our every moment, I start to replace, 

e|-----------------------------------------------------------------------------------------------------------|
B|-----------------------------------------------------------------------------------------------------------|
G|---------4-4-----------4-4-----------3-3------3-3----------------------------------------------------------|
D|-----------------------------------------------------------------------------------------------------------|
A|-----------------------------------------------------------------------------------------------------------|
E|----2--2-2--------2--2-2---------2--2-2------2--2-2--------------------------------------------------------|
     'Cause now that they're gone, all I hear are the words that I needed to say


[Pre-chorus]

e|----------------------------------------------------------------------------------------|
B|----------------------------------------------------------------------------------------|
G|------4-4-----------4-4------------4-4------------4-4-----------------------------------|
D|----------------------------------------------------------------------------------------|
A|--2--2-2---------2--2-2--------2--2-2---------2--2-2------------------------------------|
E|----------------------------------------------------------------------------------------|
   When      you        hurt   under    the     surface                          

e|------------------------------------------------------------------------------------------|
B|------------------------------------------------------------------------------------------|
G|------4-4-----------4-4-----------4-4-----------4-4---------------------------------------|
D|------------------------------------------------------------------------------------------|
A|------------------------------------------------------------------------------------------|
E|--4--4-4--------4--4-4--------4--4-4--------4--4-4----------------------------------------|
    Like        troubled     water     running ...

e|-----------------------------------------------------------------------------------------------------------|
B|-----------------------------------------------------------------------------------------------------------|
G|------4-4--------4-4--------4-4--------4-4--------4-4------4-4------3-3------3-3---------------------------|
D|-----------------------------------------------------------------------------------------------------------|
A|-----------------------------------------------------------------------------------------------------------|
E|--0--0-0-----0--0-0-----0--0-0-----0--0-0-----2--2-2---2--2-2---2--2-2---2--2-2----------------------------|
   cold                    Well,    time can heal but this won't

[CHORUS 1] 
uses these variations on chords

e|------------------------------------------------------------------------------------------------------|
B|------4---------4------4-----4-----2----2-------------------------------------------------------------|
G|------4---4-----4------4-----4-----4----4-------4-----------------------------------------------------|
D|----------4-------------------------------------4-----------------------------------------------------|
A|------2---2-------------------------------------1-----------------------------------------------------|
E|----------------2------4-----0-----0----2-------------------------------------------------------------|
        B   B*    F#     G#    E     E*   F#*     A# 
                                

B                F#
So, before you go
                   G# 
Was there something I could've said

To make your heart beat better?
E                                E*
If only I'd have known you had a storm to weather
B                F#
So, before you go
              G# 
Was there something I could've said

To make it all stop hurting?
E                                      E*
It kills me how your mind can make you feel so worthless
F#*             B
So, before you go

[Verse 2]

e|----------------------------------------------------------------------------------------|
B|----------------------------------------------------------------------------------------|
G|------4-4-----------4-4------------4-4------------4-4-----------------------------------|
D|----------------------------------------------------------------------------------------|
A|--2--2-2---------2--2-2--------2--2-2---------2--2-2------------------------------------|
E|----------------------------------------------------------------------------------------|
          Was never the right time, whenever you called                            

e|------------------------------------------------------------------------------------------|
B|------------------------------------------------------------------------------------------|
G|------4-4-----------4-4-----------4-4-----------4-4---------------------------------------|
D|------------------------------------------------------------------------------------------|
A|------------------------------------------------------------------------------------------|
E|--4--4-4--------4--4-4--------4--4-4--------4--4-4----------------------------------------|
  Went little by little by little until there was nothing at all

e|-----------------------------------------------------------------------------------------------------------|
B|------4-4------4-4------4-4------4-4-----------------------------------------------------------------------|
G|------4-4------4-4------4-4------4-4-----------------------------------------------------------------------|
D|-----------------------------------------------------------------------------------------------------------|
A|-----------------------------------------------------------------------------------------------------------|
E|--0--0-0---0--0-0---0--0-0---0--0-0------------------------------------------------------------------------|
  Our every moment, I start to replay

e|-----------------------------------------------------------------------------------------------------------|
B|-----------------------------------------------------------------------------------------------------------|
G|---------4-4-----------4-4-----------3-3------3-3----------------------------------------------------------|
D|-----------------------------------------------------------------------------------------------------------|
A|-----------------------------------------------------------------------------------------------------------|
E|----2--2-2--------2--2-2---------2--2-2------2--2-2--------------------------------------------------------|
     But all I can think about is seeing that look on your face


[Pre-chorus]

e|----------------------------------------------------------------------------------------|
B|----------------------------------------------------------------------------------------|
G|------4-4-----------4-4------------4-4------------4-4-----------------------------------|
D|----------------------------------------------------------------------------------------|
A|--2--2-2---------2--2-2--------2--2-2---------2--2-2------------------------------------|
E|----------------------------------------------------------------------------------------|
   When      you        hurt   under    the     surface                          

e|------------------------------------------------------------------------------------------|
B|------------------------------------------------------------------------------------------|
G|------4-4-----------4-4-----------4-4-----------4-4---------------------------------------|
D|------------------------------------------------------------------------------------------|
A|------------------------------------------------------------------------------------------|
E|--4--4-4--------4--4-4--------4--4-4--------4--4-4----------------------------------------|
    Like        troubled     water     running ...

e|-----------------------------------------------------------------------------------------------------------|
B|-----------------------------------------------------------------------------------------------------------|
G|------4-4--------4-4--------4-4--------4-4--------4-4------4-4------3-3------3-3---------------------------|
D|-----------------------------------------------------------------------------------------------------------|
A|-----------------------------------------------------------------------------------------------------------|
E|--0--0-0-----0--0-0-----0--0-0-----0--0-0-----2--2-2---2--2-2---2--2-2---2--2-2----------------------------|
   cold                    Well,    time can heal but this won't


B                F#
So, before you go
                   G# 
Was there something I could've said

To make your heart beat better?
E                                E*
If only I'd have known you had a storm to weather
B                F#
So, before you go
              G# 
Was there something I could've said

To make it all stop hurting?
E                                      E*
It kills me how your mind can make you feel so worthless
F#*             B
So, before you go


G#          E             B 
Would we be better off by now?
    F#                     G#
If I'd have let my wall come down
          E                F#
Maybe I guess we'll never know
                  B
You know, you know


B*              A#
So, before you go
                   G# 
Was there something I could've said

To make your heart beat better?
E                                E*
If only I'd have known you had a storm to weather
B                F#
So, before you go
              G# 
Was there something I could've said

To make it all stop hurting?
E                                      E*
It kills me how your mind can make you feel so worthless
F#*             B
So, before you go

Lihat semua Kunci Gitar Lewis Capaldi Tabs