Kunci Gitar Pink Floyd - Wish You Were Here (Tab)

AUTO SCROLL TEKS: A + A - TERANG

Pink Floyd - Wish You Were Here Tab

Key:       C
Tuning:    E A D G B E
kesulitan: Mudah

[Intro]
                      ^V^
e|---------------------3------------------------------3---|
B|---------------------3------------------------------3---|
G|---------------------0------------------0-----------0---| x2
D|-------------0--2----2---------------2-----2--0-----0---|
A|------0h2------------2------------------------------2---|
E|---3-----------------x------------------------------3---|

                      ^V^                              ^V^
e|---------------------3--------------------------------3---|
B|---------------------3--------------------------------3---|
G|---------------------0--------------------------------2---| x2
D|-------------0--2----2------2-----0-------------------2---|
A|------0h2------------2------------------2-------0-----0---|
E|---3-----------------x--------------------------------0---|

e|----------3---|
B|----------3---|
G|-----0-0--0---|
D|-----0-0--0---|   (Guitar 1 continues playing under the solo )
A|-0h2------2---|
E|----------3---|

[Solo]
(Guitar 2)
e|----------------------------------------------------------|
B|----------3---5--------3----------------------------------|
G|-----2/4-----------4--------4----2---0--------------------|
D|------------------------------------------0---------0---0-|
A|-----------------------------------------------1/2--------|
E|----------------------------------------------------------|

e|----3/5\3-------------------------------------------------|
B|----3/5\3----3/5\3----3----3/5\3--------------------------|
G|-------------2/4\2----0----2/4\2---2p0----2/4-------------|
D|------------------------------------------3/5-------------|
A|----------------------------------------------------------|
E|----------------------------------------------------------|

e|------------------------------------------------------------------------|
B|----------3--------5----5b---3-----3--------------3-----5---------------|
G|----2/4-------4-----------------4----2----4b----------------4b-----2----|
D|------------------------------------------------------------------------|
A|------------------------------------------------------------------------|
E|------------------------------------------------------------------------|

e|------------------------------------------------------------------------|
B|---------3---------5-----5b-----5-------3-------------------------------|
G|----2/4------4----------------------4------2----4b-----2----------------|
D|------------------------------------------------------------------------|
A|------------------------------------------------------------------------|
E|------------------------------------------------------------------------|

[Verse]
C                           D
So, so you think you can tell
              Am
Heaven from Hell
                   G
Blue skies from pain
                       D
Can you tell a green field
                    C
From a cold steel rail
                Am
A smile from a veil
                       G
Do you think you can tell
                       C
Did they get you to trade
                    D
Your heroes for ghosts
                  Am
Hot ashes for trees
                       G
Hot air for a cool breeze
                    D
Cold comfort for change
               C
Did you exchange?
                      Am
A walk on part in the war
                      G
For a lead role in a cage


[Solo]
(Guitar 1, Guitar 2 plays Intro under Solo)
e|--------10-10-------10-10---12-10-10------|
B|---10/12-------10/12-----------------12---|
G|------------------------------------------|
D|------------------------------------------|
A|------------------------------------------|
E|------------------------------------------|

e|---------10-10-10-12-10------------------------|
B|---10/12--------------------12p10p8------------|
G|------------------------------------7-7---9-7--|
D|----------------------------------------9------|
A|-----------------------------------------------|
E|-----------------------------------------------|

e|----------------10-10-10-----------12----------|
B|-----8-10-10/12---------10--12/14----14p12p10--|
G|---9-------------------------------------------|
D|-----------------------------------------------|
A|-----------------------------------------------|
E|-----------------------------------------------|

e|---------10---------------------------12---------------|
B|---10/12----12p10p8-10-12-12-8--12/14-----14p12p10--8--|
G|-------------------------------------------------------|
D|-------------------------------------------------------|
A|-------------------------------------------------------|
E|-------------------------------------------------------|

[Chorus]
C                              D
How I wish, how I wish you were here
            Am                                    G
We're just two lost souls swimming in a fish bowl
                 D
Year after year.
                                  C
Running over the same old ground.
                                  Am
What have we found the same old fears
                             G
Wish you were here...

[Outro]
                      ^V^
e|---------------------3------------------------------3---|
B|---------------------3------------------------------3---|
G|---------------------0------------------0-----------0---| x2
D|-------------0--2----2---------------2-----2--0-----0---|
A|------0h2------------2------------------------------2---|
E|---3-----------------x------------------------------3---|

                      ^V^                              ^V^
e|---------------------3--------------------------------3---|
B|---------------------3--------------------------------3---|
G|---------------------0--------------------------------2---| x2
D|-------------0--2----2------2-----0-------------------2---|
A|------0h2------------2------------------2-------0-----0---|
E|---3-----------------x--------------------------------0---|

                      ^V^
e|---------------------3---------------|
B|---------------------3---------------|
G|---------------------0---------------|
D|---------------------0---------------|
A|--------0h2-0--------2---------------|
E|---3------------3----3---------------|


***********************************

| h   Hammer-on
| p   Pull-off
| b   Bend
| /   Slide up
| \   Slide down
| x   Dead note
|^V^  Strum a few times

***********************************

Lihat semua Kunci Gitar Pink Floyd Tabs