Kunci Gitar The Beatles - Blackbird (Tab)

AUTO SCROLL TEKS: A + A - TERANG

The Beatles - Blackbird Tab

Key:       G
Tuning:    E A D G B E
Kesulitan: Sedang

[Intro]

e|-------------------------------------------------------------|
B|---0-------1-------3--------/12----12--12----12----12--12----|
G|-------0-------0-------0---------0-------0-------0-------0---|
D|-------------------------------------------------------------|
A|-----------0-------2--------/10------10------10------10------|
E|---3---------------------------------------------------------|

[Verse]

e|-------------------------------------------------------------|
B|---0-------1-------3--------/12----12--12----12----12--12----|
G|-------0-------0-------0---------0-------0-------0-------0---|
D|-------------------------------------------------------------|
A|-----------0-------2--------/10------10------10------10------|
E|---3---------------------------------------------------------|

e|-----------3---------------5---------------------------------------|
B|---5---------------7---------------8-----8---8-----8-----8---8-----|
G|-------0-------0-------0-------0-------0-------0-------0-------0---|
D|-------------------------------------------------------------------|
A|---3-------4-------5-------6-------7-------7-------6-------6-------|
E|-------------------------------------------------------------------|

e|-----------3----------------------------------------|
B|---7---------------5-----5---5------4-----4---4-----|
G|-------0-------0-------0-------0--------0-------0---|
D|----------------------------------------------------|
A|---5-------4-------3-------3--------3-------3-------|
E|----------------------------------------------------|

e|-----------------------------------------------------------------------|
B|---3-----3---3-----2-----2---2------1-----1---1------0-----0----0------|
G|-------0-------0-------0-------0--------0-------0--------0---------0---|
D|------------------------------------0-------0--------------------------|
A|---2-------2-------0-------0-------------------------------------------|
E|-----------------------------------------------------3--------3--------|

[Fill]

e|----------------------------------------------------------------------|
B|--5-------3---------2-----2---2-----1-----1---1------0-----0----0-----|
G|------0-------0---------0-------0-------0-------0--------0--------0---|
D|------------------------------------0-------0-------------------------|
A|--3-------2---------0-------0-----------------------------------------|
E|-----------------------------------------------------3--------3-------|

[Verse]

e|-------------------------------------------------------------|
B|---0-------1-------3--------/12----12--12----12----12--12----|
G|-------0-------0-------0---------0-------0-------0-------0---|
D|-------------------------------------------------------------|
A|-----------0-------2--------/10------10------10------10------|
E|---3---------------------------------------------------------|

e|-----------3---------------5---------------------------------------|
B|---5---------------7---------------8-----8---8-----8-----8---8-----|
G|-------0-------0-------0-------0-------0-------0-------0-------0---|
D|-------------------------------------------------------------------|
A|---3-------4-------5-------6-------7-------7-------6-------6-------|
E|-------------------------------------------------------------------|

e|-----------3----------------------------------------|
B|---7---------------5-----5---5------4-----4---4-----|
G|-------0-------0-------0-------0--------0-------0---|
D|----------------------------------------------------|
A|---5-------4-------3-------3--------3-------3-------|
E|----------------------------------------------------|

e|-----------------------------------------------------------------------|
B|---3-----3---3-----2-----2---2------1-----1---1------0-----0----0------|
G|-------0-------0-------0-------0--------0-------0--------0---------0---|
D|------------------------------------0-------0--------------------------|
A|---2-------2-------0-------0-------------------------------------------|
E|-----------------------------------------------------3--------3--------|

[Chorus]

e|---------------------------------------------------------------------|
B|---10------8-------6-------5---------3-----3---3-----5-----5---5-----|
G|-------0-------0-------0-------0---------0-------0-------0-------0---|
D|---------------------------------------------------------------------|
A|---8-------7-------5-------3---------1-------1-------3-------3-------|
E|---------------------------------------------------------------------|

e|---------------------------------------------------------------------|
B|---10------8-------6-------5---------3-----3---3-----2-----2---2-----|
G|-------0-------0-------0-------0---------0-------0-------0-------0---|
D|---------------------------------------------------------------------|
A|---8-------7-------5-------3---------1-------1-------0-------0-------|
E|---------------------------------------------------------------------|

e|----------------------|
B|---1-----1---1----1---|
G|-------0-------0------|
D|---0-------0----------|
A|----------------------|
E|----------------------|

[Verse]

e|-------------------------------------------------------------|
B|---0-------1-------3--------/12----12--12----12----12--12----|
G|-------0-------0-------0---------0-------0-------0-------0---|
D|-------------------------------------------------------------|
A|-----------0-------2--------/10------10------10------10------|
E|---3---------------------------------------------------------|

e|-----------3---------------5---------------------------------------|
B|---5---------------7---------------8-----8---8-----8-----8---8-----|
G|-------0-------0-------0-------0-------0-------0-------0-------0---|
D|-------------------------------------------------------------------|
A|---3-------4-------5-------6-------7-------7-------6-------6-------|
E|-------------------------------------------------------------------|

e|-----------3----------------------------------------|
B|---7---------------5-----5---5------4-----4---4-----|
G|-------0-------0-------0-------0--------0-------0---|
D|----------------------------------------------------|
A|---5-------4-------3-------3--------3-------3-------|
E|----------------------------------------------------|

e|-----------------------------------------------------------------------|
B|---3-----3---3-----2-----2---2------1-----1---1------0-----0----0------|
G|-------0-------0-------0-------0--------0-------0--------0---------0---|
D|------------------------------------0-------0--------------------------|
A|---2-------2-------0-------0-------------------------------------------|
E|-----------------------------------------------------3--------3--------|

[Chorus]

e|---------------------------------------------------------------------|
B|---10------8-------6-------5---------3-----3---3-----5-----5---5-----|
G|-------0-------0-------0-------0---------0-------0-------0-------0---|
D|---------------------------------------------------------------------|
A|---8-------7-------5-------3---------1-------1-------3-------3-------|
E|---------------------------------------------------------------------|

e|---------------------------------------------------------------------|
B|---10------8-------6-------5---------3-----3---3-----2-----2---2-----|
G|-------0-------0-------0-------0---------0-------0-------0-------0---|
D|---------------------------------------------------------------------|
A|---8-------7-------5-------3---------1-------1-------0-------0-------|
E|---------------------------------------------------------------------|

e|----------------------|
B|---1-----1---1----1---|
G|-------0-------0------|
D|---0-------0----------|
A|----------------------|
E|----------------------|

[Verse]

e|-------------------------------------------------------------|
B|---0-------1-------3--------/12----12--12----12----12--12----|
G|-------0-------0-------0---------0-------0-------0-------0---|
D|-------------------------------------------------------------|
A|-----------0-------2--------/10------10------10------10------|
E|---3---------------------------------------------------------|

e|----------------------------------------------------------------------|
B|---12----12--12----12----12--12------12-----12----12----12------------|
G|-------0-------0-------0-------0---------0-----0-----0---0------------|
D|----------------------------------------------------------------------|
A|---10------10------10------10--------10-----10----10----10------------|
E|----------------------------------------------------------------------|

e|------------------------------------------------------------------------|
B|-12\--0-------1-------3--------5-------3-------2--------1-----1---1-----|
G|----------0-------0-------0--------0-------0-------0--------0-------0---|
D|--------------------------------------------------------0-------0-------|
A|-10\----------0-------2--------3-------2-------0------------------------|
E|------3-----------------------------------------------------------------|

[Verse]

e|-------------------------------------------------------------|
B|---0-------1-------3--------/12----12--12----12----12--12----|
G|-------0-------0-------0---------0-------0-------0-------0---|
D|-------------------------------------------------------------|
A|-----------0-------2--------/10------10------10------10------|
E|---3---------------------------------------------------------|

e|-----------3---------------5---------------------------------------|
B|---5---------------7---------------8-----8---8-----8-----8---8-----|
G|-------0-------0-------0-------0-------0-------0-------0-------0---|
D|-------------------------------------------------------------------|
A|---3-------4-------5-------6-------7-------7-------6-------6-------|
E|-------------------------------------------------------------------|

e|-----------3----------------------------------------|
B|---7---------------5-----5---5------4-----4---4-----|
G|-------0-------0-------0-------0--------0-------0---|
D|----------------------------------------------------|
A|---5-------4-------3-------3--------3-------3-------|
E|----------------------------------------------------|

e|-----------------------------------------------------------------------|
B|---3-----3---3-----2-----2---2------1-----1---1------0-----0----0------|
G|-------0-------0-------0-------0--------0-------0--------0---------0---|
D|------------------------------------0-------0--------------------------|
A|---2-------2-------0-------0-------------------------------------------|
E|-----------------------------------------------------3--------3--------|

e|------------------------------------------------------------------------|
B|---5-------3-------2-----2---2--------1-----1---1------0-----0----0-----|
G|-------0-------0-------0-------0----------0-------0--------0--------0---|
D|--------------------------------------0-------0-------------------------|
A|---3-------2-------0-------0--------------------------------------------|
E|-------------------------------------------------------3--------3-------|

e|----------------------------------------------------------------------|
B|---5-------3-------2-----2---2--------1-----1---1-----0---0-----------|
G|-------0-------0-------0-------0----------0-------0---0---0-----------|
D|--------------------------------------0-------0-------0---0-----------|
A|---3-------2-------0-------0------------------------------2-----------|
E|------------------------------------------------------3---------------|

************************************

| /   Slide up
| \   Slide down

************************************


Lihat semua Kunci Gitar Tabs The Beatles