Kunci Gitar The Beatles - Here Comes The Sun (Tab)

AUTO SCROLL TEKS: A + A - TERANG

The Beatles - Here Comes The Sun (Tab)

Capo: fret 7
Kesulitan: Sedang
Tuning: E A D G B E
Key: D

[Intro]

     D                       G             A7
e|---2-----0--2-----2--0------------0----------------------0----|o
B|---3--3--------3--------3--0--3--(0)--3--0--2--0--2--3--(2)---|
G|---2-----------------------0-------------0--------------------|
D|---0-----------------------0-------------2--------------------|
A|---------------------------2-------------0--------------------|
E|---------------------------3----------------------------------|

     D                          G            A7
e|------2-----0--2-----2--0--------2--0---------|
B|---3-----3--------3--------3--0--------3---2--|
G|---2--------------------------0------------0--|
D|---0--------------------------0------------2--|
A|------------------------------2------------0--|
E|------------------------------3---------------|


[Verse 1]

     D                          G             E7
e|------2--0--2-----2-----0--2-----2--0--2-------|
B|---3-------- --3-----3--------0-------------3--|
G|---2--------------------------0-------------1--|
D|---0--------------------------0-------------0--|
A|------------------------------2-------------2--|
E|------------------------------3-------------0--|
        Here comes the sun         Here comes the sun

     D
e|------2--0----|
B|---3-------3--|
G|---2----------|
D|---0----------|
A|--------------|
E|--------------|
        It's all right


[Fill]

e|----------0--------0--------0--------0--------------|
B|-------3--------3--------3--------3-----3--2--0-----|
G|--2/4--------2--------0--------2-----------------2--|
D|----------------------------------------------------|
A|----------------------------------------------------|
E|----------------------------------------------------|


[Verse 2]

     D                       G             A7
e|---2-----0--2-----2--0------------0----------------------0----|
B|---3--3--------3--------3--0--3--(0)--3--0--2--0--2--3--(2)---|
G|---2-----------------------0-------------0--------------------|
D|---0-----------------------0-------------2--------------------|
A|---------------------------2-------------0--------------------|
E|---------------------------3----------------------------------|
     Little darling  It's been a long cold lonely winter

     D                          G            A7
e|---2--2-----0--2-----2--0--------2--0---------|
B|---3-----3--------3--------3--0--------3---2--|
G|---2--------------------------0------------0--|
D|---0--------------------------0------------2--|
A|------------------------------2------------0--|
E|------------------------------3---------------|
     Little darling      It seems like years since it's been here

     D                          G             E7
e|------2--0--2-----2-----0--2-----2--0--2-------|
B|---3-------- --3-----3--------0-------------3--|
G|---2--------------------------0-------------1--|
D|---0--------------------------0-------------0--|
A|------------------------------2-------------2--|
E|------------------------------3-------------0--|
        Here comes the sun         Here comes the sun

     D
e|------2--0----|
B|---3-------3--|
G|---2----------|
D|---0----------|
A|--------------|
E|--------------|
        It's all right

e|----------0--------0--------0--------0--------------|
B|-------3--------3--------3--------3-----3--2--0-----|
G|--2/4--------2--------0--------2-----------------2--|
D|----------------------------------------------------|
A|----------------------------------------------------|
E|----------------------------------------------------|

e|------2-----0--2-------------------0---|
B|---3-----3---------0--2--0--2--3--(2)--|
G|---2---------------0-------------------|
D|---0---------------2-------------------|
A|-------------------0-------------------|
E|---------------------------------------|
     D               A7



[Verse 3]

     D                       G             A7
e|---2-----0--2-----2--0------------0----------------------0----|
B|---3--3--------3--------3--0--3--(0)--3--0--2--0--2--3--(2)---|
G|---2-----------------------0-------------0--------------------|
D|---0-----------------------0-------------2--------------------|
A|---------------------------2-------------0--------------------|
E|---------------------------3----------------------------------|
     Little darling The smiles returning to the faces

     D                          G            A7
e|---2--2-----0--2-----2--0--------2--0---------|
B|---3-----3--------3--------3--0--------3---2--|
G|---2--------------------------0------------0--|
D|---0--------------------------0------------2--|
A|------------------------------2------------0--|
E|------------------------------3---------------|
    Little darling   It seems like years since it's been here

     D                          G             E7
e|------2--0--2-----2-----0--2-----2--0--2-------|
B|---3-------- --3-----3--------0-------------3--|
G|---2--------------------------0-------------1--|
D|---0--------------------------0-------------0--|
A|------------------------------2-------------2--|
E|------------------------------3-------------0--|
        Here comes the sun         Here comes the sun

     D
e|------2--0----|
B|---3-------3--|
G|---2----------|
D|---0----------|
A|--------------|
E|--------------|
        It's all right


[Fill]

e|----------0--------0--------0--------0--------------|
B|-------3--------3--------3--------3-----3--2--0-----|
G|--2/4--------2--------0--------2-----------------2--|
D|----------------------------------------------------|
A|----------------------------------------------------|
E|----------------------------------------------------|


     D                 A7
e|---2--2-----0--2-----------|
B|---3-----3--------0--2-----|
G|---2-----------------2--2--|
D|---0-----------------2--2--|
A|---------------------0--0--|
E|---------------------------|

[Bridge]

e|--------------------------------------------2--------|
B|-----------------1--------------------------3----2---|
G|--------------2-----------0--------0--------2----0---| (x6)
D|--------2--3-----------2--------0-----------0----2---|
A|--0--4--------------3--------2-----------2-------0---|
E|--------------------------------------3--------------|

e|--------------------0-------0---3---5--5--|
B|-2--0--2--3--2--3--(2)--3--(2)------------|
G|-0----------------------------------------|
D|-2----------------------------------------|
A|-0----------------------------------------|
E|------------------------------------------|

[Verse 4]

     D                       G             A7
e|---2-----0--2-----2--0------------0----------------------0----|
B|---3--3--------3--------3--0--3--(0)--3--0--2--0--2--3--(2)---|
G|---2-----------------------0-------------0--------------------|
D|---0-----------------------0-------------2--------------------|
A|---------------------------2-------------0--------------------|
E|---------------------------3----------------------------------|
    Little darling   I feel that ice is slowly melting

     D                          G            A7
e|---2--2-----0--2-----2--0--------2--0---------|
B|---3-----3--------3--------3--0--------3---2--|
G|---2--------------------------0------------0--|
D|---0--------------------------0------------2--|
A|------------------------------2------------0--|
E|------------------------------3---------------|
     Little darling  It seems like years since it's been clear

     D                          G             E7
e|------2--0--2-----2-----0--2-----2--0--2-------|
B|---3-------- --3-----3--------0-------------3--|
G|---2--------------------------0-------------1--|
D|---0--------------------------0-------------0--|
A|------------------------------2-------------2--|
E|------------------------------3-------------0--|
        Here comes the sun         Here comes the sun

     D
e|------2--0----|
B|---3-------3--|
G|---2----------|
D|---0----------|
A|--------------|
E|--------------|
        It's all right

[Fill]

e|----------0--------0--------0--------0--------------|
B|-------3--------3--------3--------3-----3--2--0-----|
G|--2/4--------2--------0--------2-----------------2--|
D|----------------------------------------------------|
A|----------------------------------------------------|
E|----------------------------------------------------|

     D                          G             E7
e|------2--0--2-----2-----0--2-----2--0--2-------|
B|---3-----------3-----3--------0-------------3--|
G|---2--------------------------0-------------1--|
D|---0--------------------------0-------------0--|
A|------------------------------2-------------2--|
E|------------------------------3-------------0--|
        Here comes the sun         Here comes the sun

     D
e|------2--0----|
B|---3-------3--|
G|---2----------|
D|---0----------|
A|--------------|
E|--------------|
        It's all right


[Coda]

e|------0-----0-----0-----0-|---------|-----2-0---------|
B|----3-----3-----3-----3---|-3p2-0---|-----3-----3-----|
G|2/4-----2-----0-----2-----|-------2-|-----2---------2/|
D|--------------------------|---------|-0---------------|
A|--------------------------|---------|-----------------|
E|--------------------------|---------|-----------------|
    1 & 2 & 3 & 4 & 5 & 6 &   1 & 2 &   1 & 2 & 3 & 4 &

e|-----0-----0-----0-----0-|---------|-----------------------2-------|
B|---3-----3-----3-----3---|-3p2-0---|-----1-----------------3-------|
G|-4-----2-----0-----2-----|-------2-|---2-------0-----0-----2-------|
D|-------------------------|---------|-3-------2-----0-------0-------|
A|-------------------------|---------|-------3-----2-------2---------|
E|-------------------------|---------|-------------------3-----------|
   1 & 2 & 3 & 4 & 5 & 6 &   1 & 2 &


************************************

| (n)  Ghost note
|  /   Slide up
|  p   Pull-off

************************************

Lihat semua Kunci Gitar Tabs The Beatles