Kunci Gitar The Beatles - Hey Jude (Tab)

AUTO SCROLL TEKS: A + A - TERANG

The Beatles - Hey Jude Tab

[Verse 1]

 Hey Jude, don't make it bad          |  Hey Jude, don't be afraid
 Take a sad song and make it better   |  You were made to go out and get her
 Remember to let her into your heart  | The minute you let her under your skin
 Then you can start to make it better | Then you begin to make it better
e|---------------------------------------------------------------------------|
B|-----------------------------6--6-5-----------------------8-6-5-6----------|
G|--5----------5-7--------------------5-7-5--------5-7-7--7---------7-5------|
D|-----7-----7-----5----5-7-8---------------8-7------------------------------|
A|---------------------------------------------------------------------------|
E|---------------------------------------------------------------------------|

e|---------------------------------------------------------------------------|
B|---------------------------------------------------------------------------|
G|--------7-5---5------------------------------------------------------------|
D|----5-7---------8-7--------------------------------------------------------|
A|--8------------------7-8---------------------------------------------------|
E|---------------------------------------------------------------------------|
                                                                               (x2)

 And any time you feel the pain, hey Jude, refrain
 Don't carry the world upon your shoulders
------------------------------------------------------------------------------
 For well you know that it's a fool who plays it cool
 By making his world a little colder
e|---------------------------------------------------------------------------|
B|-----6-------------6-----6-----6-------------------------------------------|
G|---5----8-7-5-5--7---7-----------7-5---5--7-5------------------------------|
D|---------------8-----------8---------8--------8-7--------------------------|
A|--------------------------------------------------8------------------------|
E|---------------------------------------------------------------------------|
                                       (x2)

[Chorus]

 Nah, nah nah nah, nah nah nah, nah nah
e|---------------------------------------------------------------------------|
B|-------------5-6-8-8-------------------------------------------------------|
G|----5-7-8-8----------------------------------------------------------------|
D|---------------------------------------------------------------------------|
A|--8------------------------------------------------------------------------|
E|---------------------------------------------------------------------------|

[Verse 2]

 Hey Jude, don't let me down
 You have found her, now go and get her
 Remember to let her into your heart
 Then you can start to make it better
e|---------------------------------------------------------------------------|
B|-----------------------------6--6-5-----------------------8-6-5-6----------|
G|--5----------5-7--------------------5-7-5--------5-7-7--7---------7-5------|
D|-----7-----7-----5----5-7-8---------------8-7------------------------------|
A|---------------------------------------------------------------------------|
E|---------------------------------------------------------------------------|

e|---------------------------------------------------------------------------|
B|---------------------------------------------------------------------------|
G|--------7-5---5------------------------------------------------------------|
D|----5-7---------8-7--------------------------------------------------------|
A|--8------------------7-8---------------------------------------------------|
E|---------------------------------------------------------------------------|

 So let it out and let it in, hey Jude, begin
 You're waiting for someone to perform with
------------------------------------------------------------------------------
 And don't you know that it's just you, hey Jude, you'll do
 The movement you need is on your shoulder
e|---------------------------------------------------------------------------|
B|-----6--------------6----6-----6-------------------------------------------|
G|---5----8-7-5-5--7----7----------7-5---5--7-5------------------------------|
D|---------------8-----------8---------8--------8-7--------------------------|
A|--------------------------------------------------8------------------------|
E|---------------------------------------------------------------------------|

e|---------6-----------------------------------------------------------------|
B|-----6-8---6-8-8-6---6----8--------6---------------------------------------|
G|---5--------------7----7----7p5------7-5---5--7-5--------------------------|
D|-------------------------------5---------8--------8-7----------------------|
A|------------------------------------------------------8--------------------|
E|---------------------------------------------------------------------------|

[Chorus]
 
 Nah, nah nah nah, nah, nah nah nah, nah, yeah
e|---------------------------------------------------------------------------|
B|-------------5-6-8-8-------------------------------------------------------|
G|----5-7-8-8----------------------------------------------------------------|
D|---------------------------------------------------------------------------|
A|--8------------------------------------------------------------------------|
E|---------------------------------------------------------------------------|

[Verse 3]

 Hey Jude, don't make it bad
 Take a sad song and make it better
 Remember to let her under your skin
 Then you'll begin to make it
 Better better better better better better, oh
e|---------------------------------------------------------------------------|
B|----6----------------------------6--6-5-----------------------8-6-5-6------|
G|--7---7-(5)-------5-7--------------------5-7-5-------5-7-7--7--------7-5---|
D|-----------(7)--7-----5----5-7-8---------------8-7-------------------------|
A|---------------------------------------------------------------------------|
E|---------------------------------------------------------------------------|

e|-------------------------------------------5--7-8---13---------------------|
B|------------------------------------5-6--8---------------------------------|
G|--------7-5---5----------------4-5-----------------------------------------|
D|----5-7---------8-7-------5-7----------------------------------------------|
A|--8------------------7-8---------------------------------------------------|
E|---------------------------------------------------------------------------|

[Chorus]

 Nah nah, nah nah nah nah, nah nah nah, hey Jude
e|---------------------------------------------------------------------------|
B|---------8-6-8-6------8-6-8-6----------------------------------------------|
G|-------5-----------------------8p7-5---------------------------------------|
D|-----7---------------------------------------------------------------------|
A|--8------------------------------------------------------------------------|
E|---------------------------------------------------------------------------|
                                                                               (x18)

************************************

| p    Pull-off
| (n)  Ghost note
| x    Mute note

************************************

Lihat semua Kunci Gitar Tabs The Beatles