Kunci Gitar Zayn - Better (Tab)

AUTO SCROLL TEKS: A + A - TERANG

Zayn - Better (Tab)



Tuning: E A D G B E
Kesulitan: Sedang

[Intro]

E|--14----14--15--14--10--|---------10--12--14--7--|--------12--14--12--10--|----------10--------14--|
B|--14----14----------12--|---------12----------9--|--------12----------11--|----------8--10--8--14--|
G|--14----14----------11--|---------11----------9--|--------12----------12--|--------------------14--|
D|------------------------|------------------------|------------------------|------------------------|
A|------------------------|------------------------|------------------------|------------------------|
E|------------------------|------------------------|------------------------|------------------------|

[Main Guitar Riff] - This is for the Chorus, Pre Chorus, and Verses. It's just repeated

E|------------------------|------------------------|------------------------|------------------------|
B|--7--------7--8--10--7--|-----------7--8--10--8--|--------8--10----10-11--|---------8--10--8----7--|
G|--6--------6---------7--|-----------7---------7--|--------7--------11-12--|---------------------6--|
D|--7--------7---------7--|-----------7---------9--|--------9---------------|--------8------------7--|
A|--5--------5------------|---------------------7--|--------7---------------|------6--------------5--|
E|---------------------7--|-----------7------------|-----------------10-11--|------------------------|

Hope I only leave good vibes on your living room floor...

E|------------------------|------------------------|------------------------|------------------------|
B|--7--------7--8--10--7--|-----------7--8--10--8--|--------8--10----10-11--|---------8--10--8----7--|
G|--6--------6---------7--|-----------7---------7--|--------7--------11-12--|---------------------6--|
D|--7--------7---------7--|-----------7---------9--|--------9---------------|--------8------------7--|
A|--5--------5------------|---------------------7--|--------7---------------|------6--------------5--|
E|---------------------7--|-----------7------------|-----------------10-11--|------------------------|

Your dad probably loves me more than he ever did now...

E|------------------------|------------------------|------------------------|------------------------|
B|--7--------7--8--10--7--|-----------7--8--10--8--|--------8--10----10-11--|---------8--10--8----7--|
G|--6--------6---------7--|-----------7---------7--|--------7--------11-12--|---------------------6--|
D|--7--------7---------7--|-----------7---------9--|--------9---------------|--------8------------7--|
A|--5--------5------------|---------------------7--|--------7---------------|------6--------------5--|
E|---------------------7--|-----------7------------|-----------------10-11--|------------------------|

Cause sometimes it's better that way...

E|------------------------|------------------------|------------------------|------------------------|
B|--7--------7--8--10--7--|-----------7--8--10--8--|--------8--10----10-11--|---------8--10--8----7--|
G|--6--------6---------7--|-----------7---------7--|--------7--------11-12--|---------------------6--|
D|--7--------7---------7--|-----------7---------9--|--------9---------------|--------8------------7--|
A|--5--------5------------|---------------------7--|--------7---------------|------6--------------5--|
E|---------------------7--|-----------7------------|-----------------10-11--|------------------------|

Just this one time, hear what I'm tryna say...

E|------------------------|------------------------|------------------------|------------------------|
B|--7--------7--8--10--7--|-----------7--8--10--8--|--------8--10----10-11--|---------8--10--8----7--|
G|--6--------6---------7--|-----------7---------7--|--------7--------11-12--|---------------------6--|
D|--7--------7---------7--|-----------7---------9--|--------9---------------|--------8------------7--|
A|--5--------5------------|---------------------7--|--------7---------------|------6--------------5--|
E|---------------------7--|-----------7------------|-----------------10-11--|------------------------|

Why... Why wait to fight...

E|------------------------|------------------------|------------------------|------------------------|
B|--7--------7--8--10--7--|-----------7--8--10--8--|--------8--10----10-11--|---------8--10--8----7--|
G|--6--------6---------7--|-----------7---------7--|--------7--------11-12--|---------------------6--|
D|--7--------7---------7--|-----------7---------9--|--------9---------------|--------8------------7--|
A|--5--------5------------|---------------------7--|--------7---------------|------6--------------5--|
E|---------------------7--|-----------7------------|-----------------10-11--|------------------------|

I fell in I'm falling for you...

N.C. During Like it's a crime on trial gotta acquit it

E|------------------------|------------------------|------------------------|------------------------|
B|--7--------7--8--10--7--|-----------7--8--10--8--|--------8--10----10-11--|---------8--10--8----7--|
G|--6--------6---------7--|-----------7---------7--|--------7--------11-12--|---------------------6--|
D|--7--------7---------7--|-----------7---------9--|--------9---------------|--------8------------7--|
A|--5--------5------------|---------------------7--|--------7---------------|------6--------------5--|
E|---------------------7--|-----------7------------|-----------------10-11--|------------------------|

Cause obviously we go back...

E|------------------------|------------------------|------------------------|------------------------|
B|--7--------7--8--10--7--|-----------7--8--10--8--|--------8--10----10-11--|---------8--10--8----7--|
G|--6--------6---------7--|-----------7---------7--|--------7--------11-12--|---------------------6--|
D|--7--------7---------7--|-----------7---------9--|--------9---------------|--------8------------7--|
A|--5--------5------------|---------------------7--|--------7---------------|------6--------------5--|
E|---------------------7--|-----------7------------|-----------------10-11--|------------------------|

We can't let this fruit go bad



[Outro]

E|------------------------|------------------------|------------------------|------------------------|
B|--7--------7--8--10--7--|-----------7--8--10--8--|--------8--10--------8--|---------8--10--8----7--|
G|--6--------6---------7--|-----------7---------7--|--------7---------------|---------------------6--|
D|--7--------7---------7--|-----------7---------9--|--------9------------8--|--------8------------7--|
A|--5--------5------------|---------------------7--|--------7------------6--|------6--------------5--|
E|---------------------7--|-----------7------------|------------------------|------------------------|

Why? Why Wait to fight... 

E|------------------------|------------------------|------------------------|------------------------|
B|--7--------7--8--10--7--|-----------7--8--10--8--|--------8--10--------8--|---------8--10--8----7--|
G|--6--------6---------7--|-----------7---------7--|--------7---------------|---------------------6--|
D|--7--------7---------7--|-----------7---------9--|--------9------------8--|--------8------------7--|
A|--5--------5------------|---------------------7--|--------7------------6--|------6--------------5--|
E|---------------------7--|-----------7------------|------------------------|------------------------|

Why wait to hate? Can we save love?

Lihat semua Kunci Gitar Tabs Zayn Malik