Arctic Monkeys - Do I Wanna Know Tab

Tuning: E A D G B E
Key: Gm
Capo: no capo
Kesulitan: Mudah

[Intro]
e|----------|
B|----------|
G|----------|
D|----------|
A|------1---|
E|--1h3---3-|

[Verse/Main riff]
e|---------------------------------------------------------------|
B|---------------------------------------------------------------|
G|---------------------------------------------------------------|(5x)
D|--------1h3-1~-------------------------------------------------|
A|------1--------3h5-3~-----1-3/5-3~----1h3-5-3h5-----------1----|
E|--1h3-------------------------------------------3~----1h3--3~--|

[Chorus]
e|-----------------------------------------------|
B|-----------------------------------------------|
G|-----------------------------------------------|
D|--------1h3-1~---------------------------------|
A|------1--------3/5-3~-----1-3/5--3~---/5-------|
E|--1h3------------------------------------------|

e|----------------------------------------------------------|
B|----------------------------------------------------------|
G|----------------------------------------------------------|
D|----------------------------------------------------------|
A|-/10----6~---3-5-6-5-3~---1-3~---1-3/5-------------1------|
E|---------------------------------------3~------1h3---3~---|

e|----------------------------------------------------------|
B|----------------------------------------------------------|
G|----------------------------------------------------------|
D|----------------------------------------------------------|
A|-/10----6~---3-5-6-5-3~---1-3~----------------------------|
E|------------------------------------3~---------------3~---|

[Verse/Main riff]
e|----------|
B|----------|
G|----------|
D|----------|
A|------1---|
E|--1h3---3-|

e|---------------------------------------------------------------|
B|---------------------------------------------------------------|
G|---------------------------------------------------------------|(2x)
D|--------1h3-1~-------------------------------------------------|
A|------1--------3/5-3~-----1-3/5--3~---1h3-5-3h5-----------1----|
E|--1h3-------------------------------------------3~----1h3--3~--|

Break (just the bass, but you can play along)
e|--------------------------------------|
B|--------------------------------------|
G|--------------------------------------| (2x)
D|--------------------------------------|
A|--/6~---------3~------/5--------------|
E|-------------------------3~------3~---|

[Verse/Main riff]
e|---------------------------------------------------------------|
B|---------------------------------------------------------------|
G|---------------------------------------------------------------|
D|--------1h3-1~-------------------------------------------------|
A|------1--------3/5-3~-----1-3/5--3~---1h3-5-3h5-----------1----|
E|--1h3-------------------------------------------3~----1h3--3~--|

[Chorus]
e|-----------------------------------------------|
B|-----------------------------------------------|
G|-----------------------------------------------|
D|--------1h3-1~---------------------------------|
A|------1--------3/5-3~-----1-3/5--3~---/5~------|
E|--1h3------------------------------------------|

e|----------------------------------------------------------|
B|----------------------------------------------------------|
G|----------------------------------------------------------|
D|----------------------------------------------------------|
A|-/10----6~---3-5-6-5-3~---1-3~---1-3/5-------------1------|
E|---------------------------------------3~------1h3---3~---|

e|----------------------------------------------------------|
B|----------------------------------------------------------|
G|----------------------------------------------------------|
D|----------------------------------------------------------|
A|-/10----6~---3-5-6-5-3~---1-3~---1-3/5-------------1------|
E|---------------------------------------3~------1h3---3~---|

[Verse/Main riff]
e|----------|
B|----------|
G|----------|
D|----------|
A|------1---|
E|--1h3---3-|

e|---------------------------------------------------------------|
B|---------------------------------------------------------------|
G|---------------------------------------------------------------|
D|--------1h3-1~-------------------------------------------------|
A|------1--------3/5-3~-----1-3/5--3~---1h3-5-3h5-----------1----|
E|--1h3-------------------------------------------3~----1h3--3~--|

e|---------------------------------------------------------------|
B|---------------------------------------------------------------|
G|---------------------------------------------------------------|
D|--------1h3-1~-------------------------------------------------|
A|------1--------3/5-3~-----1-3/5--3~---1h3-5-3h5----------------|
E|--1h3-------------------------------------------3~----------~--|

[Outro]
Gt 1 (Alex)
e|----------------------------------------------------------|
B|----------------------------------------------------------|
G|----------------------------------------------------------|(4x)
D|----------------------------------------------------------|
A|-/10----6~---3-5-6-5-3~---1-3~---1-3/5-------------1------|
E|---------------------------------------3~------1h3---3~---|

e|--------------------|
B|--------------------|
G|--------------------| (2x)
D|-------------0------|
A|---------1h3--------|
E|-3~------------3~---|

Gt 2 (Jamie)
e|--------------------------|
B|--------------------------|
G|---14---14--15-17---14-15-| (19x)
D|-17---17------------------|
A|--------------------------|
E|--------------------------|

~Tabbed by Tim Van de Voorde~

************************************

| h  Hammer-on
| ~  Vibrato
| /  Slide up

************************************



Chord Gitar Terkait